0
SECTION
2
HEADER
9
$INSUNITS
70
4
9
$ACADVER
1
AC1014
9
$HANDSEED
5
FFFF
0
ENDSEC
0
SECTION
2
TABLES
0
TABLE
2
VPORT
5
8
100
AcDbSymbolTable
0
ENDTAB
0
TABLE
2
LTYPE
5
5
100
AcDbSymbolTable
0
LTYPE
5
14
100
AcDbSymbolTableRecord
100
AcDbLinetypeTableRecord
2
BYBLOCK
70
0
0
LTYPE
5
15
100
AcDbSymbolTableRecord
100
AcDbLinetypeTableRecord
2
BYLAYER
70
0
0
ENDTAB
0
TABLE
2
LAYER
5
2
100
AcDbSymbolTable
70
2
0
LAYER
5
50
100
AcDbSymbolTableRecord
100
AcDbLayerTableRecord
2
0
70
0
6
CONTINUOUS
0
ENDTAB
0
TABLE
2
STYLE
5
3
100
AcDbSymbolTable
70
1
0
STYLE
5
11
100
AcDbSymbolTableRecord
100
AcDbTextStyleTableRecord
2
STANDARD
70
0
0
ENDTAB
0
TABLE
2
VIEW
5
6
100
AcDbSymbolTable
70
0
0
ENDTAB
0
TABLE
2
UCS
5
7
100
AcDbSymbolTable
70
0
0
ENDTAB
0
TABLE
2
APPID
5
9
100
AcDbSymbolTable
70
2
0
APPID
5
12
100
AcDbSymbolTableRecord
100
AcDbRegAppTableRecord
2
ACAD
70
0
0
ENDTAB
0
TABLE
2
DIMSTYLE
5
A
100
AcDbSymbolTable
70
1
0
ENDTAB
0
TABLE
2
BLOCK_RECORD
5
1
100
AcDbSymbolTable
70
1
0
BLOCK_RECORD
5
1F
100
AcDbSymbolTableRecord
100
AcDbBlockTableRecord
2
*MODEL_SPACE
0
BLOCK_RECORD
5
1B
100
AcDbSymbolTableRecord
100
AcDbBlockTableRecord
2
*PAPER_SPACE
0
ENDTAB
0
ENDSEC
0
SECTION
2
BLOCKS
0
BLOCK
5
20
100
AcDbEntity
100
AcDbBlockBegin
2
*MODEL_SPACE
0
ENDBLK
5
21
100
AcDbEntity
100
AcDbBlockEnd
0
BLOCK
5
1C
100
AcDbEntity
100
AcDbBlockBegin
2
*PAPER_SPACE
0
ENDBLK
5
1D
100
AcDbEntity
100
AcDbBlockEnd
0
ENDSEC
0
SECTION
2
ENTITIES
0
ARC
5
100
100
AcDbEntity
8
0
100
AcDbCircle
10
112.66654762208429
20
446.83345237791565
30
0
40
3.3000000000000114
210
0
220
0
230
1
100
AcDbArc
50
-134.9999999999998
51
44.999999999999652
0
LINE
5
101
100
AcDbEntity
8
0
100
AcDbLine
10
110.33309524416866
20
444.5
30
0
11
0
21
444.5
31
0
0
LINE
5
102
100
AcDbEntity
8
0
100
AcDbLine
10
0
20
444.5
30
0
11
0
21
388.37500000000006
31
0
0
LINE
5
103
100
AcDbEntity
8
0
100
AcDbLine
10
0
20
388.37500000000006
30
0
11
13.333095244168831
21
388.37500000000006
31
0
0
ARC
5
104
100
AcDbEntity
8
0
100
AcDbCircle
10
15.666547622084348
20
386.04154762208441
30
0
40
3.3000000000000114
210
-0
220
0
230
1
100
AcDbArc
50
-45.000000000000306
51
134.99999999999841
0
LINE
5
105
100
AcDbEntity
8
0
100
AcDbLine
10
17.999999999999972
20
383.70809524416876
30
0
11
17.999999999999972
21
283.04190475583118
31
0
0
ARC
5
106
100
AcDbEntity
8
0
100
AcDbCircle
10
15.666547622084504
20
280.70845237791553
30
0
40
3.2999999999999137
210
0
220
0
230
1
100
AcDbArc
50
-135.00000000000256
51
45.000000000002217
0
LINE
5
107
100
AcDbEntity
8
0
100
AcDbLine
10
13.333095244168875
20
278.37500000000011
30
0
11
0
21
278.37500000000006
31
0
0
LINE
5
108
100
AcDbEntity
8
0
100
AcDbLine
10
0
20
278.37500000000006
30
0
11
0
21
166.12499999999997
31
0
0
LINE
5
109
100
AcDbEntity
8
0
100
AcDbLine
10
0
20
166.12499999999997
30
0
11
13.333095244169026
21
166.12499999999997
31
0
0
ARC
5
110
100
AcDbEntity
8
0
100
AcDbCircle
10
15.666547622084506
20
163.79154762208432
30
0
40
3.2999999999999212
210
-0
220
0
230
1
100
AcDbArc
50
-45.00000000000194
51
134.99999999999793
0
LINE
5
111
100
AcDbEntity
8
0
100
AcDbLine
10
17.999999999999968
20
161.4580952441687
30
0
11
17.999999999999972
21
60.791904755831254
31
0
0
ARC
5
112
100
AcDbEntity
8
0
100
AcDbCircle
10
15.666547622084508
20
58.458452377915506
30
0
40
3.2999999999999985
210
0
220
0
230
1
100
AcDbArc
50
-135.00000000000176
51
45.000000000003482
0
LINE
5
113
100
AcDbEntity
8
0
100
AcDbLine
10
13.333095244168831
20
56.124999999999972
30
0
11
0
21
56.124999999999972
31
0
0
LINE
5
114
100
AcDbEntity
8
0
100
AcDbLine
10
0
20
56.124999999999972
30
0
11
0
21
0
31
0
0
LINE
5
115
100
AcDbEntity
8
0
100
AcDbLine
10
0
20
0
30
0
11
101.59999999999997
21
1.110632953126557e-14
31
0
0
LINE
5
116
100
AcDbEntity
8
0
100
AcDbLine
10
101.59999999999997
20
1.110632953126557e-14
30
0
11
153.5282958186429
21
294.5
31
0
0
LINE
5
117
100
AcDbEntity
8
0
100
AcDbLine
10
153.5282958186429
20
294.5
30
0
11
276.47170418135715
21
294.5
31
0
0
LINE
5
118
100
AcDbEntity
8
0
100
AcDbLine
10
276.47170418135715
20
294.5
30
0
11
328.39999999999998
21
3.5527136788005009e-14
31
0
0
LINE
5
119
100
AcDbEntity
8
0
100
AcDbLine
10
328.39999999999998
20
3.5527136788005009e-14
30
0
11
429.99999999999994
21
1.1106329531265566e-14
31
0
0
LINE
5
120
100
AcDbEntity
8
0
100
AcDbLine
10
429.99999999999994
20
1.1106329531265566e-14
30
0
11
429.99999999999994
21
56.124999999999972
31
0
0
LINE
5
121
100
AcDbEntity
8
0
100
AcDbLine
10
429.99999999999994
20
56.124999999999972
30
0
11
416.66690475583118
21
56.124999999999972
31
0
0
ARC
5
122
100
AcDbEntity
8
0
100
AcDbCircle
10
414.33345237791559
20
58.45845237791557
30
0
40
3.2999999999999923
210
0
220
0
230
1
100
AcDbArc
50
135.0000000000006
51
314.99999999999989
0
LINE
5
123
100
AcDbEntity
8
0
100
AcDbLine
10
411.99999999999994
20
60.791904755831169
30
0
11
411.99999999999994
21
161.45809524416887
31
0
0
ARC
5
124
100
AcDbEntity
8
0
100
AcDbCircle
10
414.33345237791548
20
163.79154762208441
30
0
40
3.299999999999923
210
0
220
-0
230
1
100
AcDbArc
50
45.000000000000355
51
225
0
LINE
5
125
100
AcDbEntity
8
0
100
AcDbLine
10
416.66690475583101
20
166.12499999999997
30
0
11
429.99999999999994
21
166.12499999999997
31
0
0
LINE
5
126
100
AcDbEntity
8
0
100
AcDbLine
10
429.99999999999994
20
166.12499999999997
30
0
11
429.99999999999994
21
278.37500000000006
31
0
0
LINE
5
127
100
AcDbEntity
8
0
100
AcDbLine
10
429.99999999999994
20
278.37500000000006
30
0
11
416.66690475583101
21
278.37500000000006
31
0
0
ARC
5
128
100
AcDbEntity
8
0
100
AcDbCircle
10
414.33345237791548
20
280.70845237791565
30
0
40
3.2999999999998981
210
0
220
0
230
1
100
AcDbArc
50
135
51
314.99999999999932
0
LINE
5
129
100
AcDbEntity
8
0
100
AcDbLine
10
411.99999999999994
20
283.04190475583118
30
0
11
411.99999999999994
21
383.70809524416882
31
0
0
ARC
5
130
100
AcDbEntity
8
0
100
AcDbCircle
10
414.33345237791559
20
386.04154762208447
30
0
40
3.2999999999999985
210
0
220
-0
230
1
100
AcDbArc
50
45
51
225
0
LINE
5
131
100
AcDbEntity
8
0
100
AcDbLine
10
416.66690475583118
20
388.37500000000006
30
0
11
429.99999999999994
21
388.37500000000006
31
0
0
LINE
5
132
100
AcDbEntity
8
0
100
AcDbLine
10
429.99999999999994
20
388.37500000000006
30
0
11
429.99999999999994
21
444.5
31
0
0
LINE
5
133
100
AcDbEntity
8
0
100
AcDbLine
10
429.99999999999994
20
444.5
30
0
11
319.66690475583124
21
444.5
31
0
0
ARC
5
134
100
AcDbEntity
8
0
100
AcDbCircle
10
317.33345237791565
20
446.83345237791571
30
0
40
3.3000000000000989
210
0
220
0
230
1
100
AcDbArc
50
135
51
314.99999999999864
0
LINE
5
135
100
AcDbEntity
8
0
100
AcDbLine
10
314.99999999999994
20
449.16690475583141
30
0
11
315
21
462.5
31
0
0
LINE
5
136
100
AcDbEntity
8
0
100
AcDbLine
10
315
20
462.5
30
0
11
114.99999999999993
21
462.5
31
0
0
LINE
5
137
100
AcDbEntity
8
0
100
AcDbLine
10
114.99999999999993
20
462.5
30
0
11
114.99999999999991
21
449.16690475583124
31
0
0
ENDSEC
0
SECTION
2
OBJECTS
0
DICTIONARY
5
C
100
AcDbDictionary
3
ACAD_GROUP
350
D
3
ACAD_MLINESTYLE
350
17
0
DICTIONARY
5
D
100
AcDbDictionary
0
DICTIONARY
5
1A
330
C
100
AcDbDictionary
0
DICTIONARY
5
17
100
AcDbDictionary
0
ENDSEC
0
EOF
